ISO-10303-21;
HEADER;
FILE_DESCRIPTION (( 'STEP AP203' ),
    '1' );
FILE_NAME ('QB-CTZQWP-20-633-M.STEP',
    '2020-12-24T01:50:16',
    ( '' ),
    ( '' ),
    'SwSTEP 2.0',
    'SolidWorks 2020',
    '' );
FILE_SCHEMA (( 'CONFIG_CONTROL_DESIGN' ));
ENDSEC;

DATA;
#1 = EDGE_LOOP ( 'NONE', ( #202, #130, #268, #296 ) ) ;
#2 = AXIS2_PLACEMENT_3D ( 'NONE', #4, #51, #81 ) ;
#3 = DIRECTION ( 'NONE',  ( 0.000000000000000000, 0.000000000000000000, 1.000000000000000000 ) ) ;
#4 = CARTESIAN_POINT ( 'NONE',  ( 2.500000000000000888, 0.000000000000000000, 0.000000000000000000 ) ) ;
#5 = ADVANCED_FACE ( 'NONE', ( #150 ), #147, .F. ) ;
#6 = DIRECTION ( 'NONE',  ( 0.000000000000000000, 0.000000000000000000, 1.000000000000000000 ) ) ;
#7 = APPROVAL_DATE_TIME ( #238, #26 ) ;
#8 = DIRECTION ( 'NONE',  ( -0.000000000000000000, 0.000000000000000000, 1.000000000000000000 ) ) ;
#9 = VERTEX_POINT ( 'NONE', #252 ) ;
#10 = DIRECTION ( 'NONE',  ( 0.000000000000000000, 0.000000000000000000, 1.000000000000000000 ) ) ;
#11 = VECTOR ( 'NONE', #33, 1000.000000000000000 ) ;
#12 = APPROVAL_PERSON_ORGANIZATION ( #167, #26, #53 ) ;
#13 = CARTESIAN_POINT ( 'NONE',  ( 2.999999999999999112, 12.69999999999999929, 0.000000000000000000 ) ) ;
#14 = ORIENTED_EDGE ( 'NONE', *, *, #60, .F. ) ;
#15 = EDGE_CURVE ( 'NONE', #50, #88, #134, .T. ) ;
#16 = CARTESIAN_POINT ( 'NONE',  ( -2.500000000000000444, 1.224646799147353256E-15, -10.00000000000000000 ) ) ;
#17 = PRODUCT_DEFINITION ( 'UNKNOWN', '', #234, #331 ) ;
#18 = ORIENTED_EDGE ( 'NONE', *, *, #282, .F. ) ;
#19 = CARTESIAN_POINT ( 'NONE',  ( -1.614212418857619014, 0.000000000000000000, 12.69999999999999929 ) ) ;
#20 = APPROVAL_ROLE ( '' ) ;
#21 = AXIS2_PLACEMENT_3D ( 'NONE', #267, #38, #57 ) ;
#22 = PLANE ( 'NONE',  #213 ) ;
#23 = CALENDAR_DATE ( 2020, 24, 12 ) ;
#24 = AXIS2_PLACEMENT_3D ( 'NONE', #287, #316, #156 ) ;
#25 =( GEOMETRIC_REPRESENTATION_CONTEXT ( 3 ) GLOBAL_UNCERTAINTY_ASSIGNED_CONTEXT ( ( #106 ) ) GLOBAL_UNIT_ASSIGNED_CONTEXT ( ( #117, #182, #112 ) ) REPRESENTATION_CONTEXT ( 'NONE', 'WORKASPACE' ) );
#26 = APPROVAL ( #270, 'UNSPECIFIED' ) ;
#27 = EDGE_LOOP ( 'NONE', ( #154, #179 ) ) ;
#28 = APPLICATION_PROTOCOL_DEFINITION ( 'international standard', 'config_control_design', 1994, #66 ) ;
#29 = ORIENTED_EDGE ( 'NONE', *, *, #333, .F. ) ;
#30 = DIRECTION ( 'NONE',  ( -1.000000000000000000, -0.000000000000000000, -0.000000000000000000 ) ) ;
#31 = LOCAL_TIME ( 9, 50, 16.00000000000000000, #148 ) ;
#32 = EDGE_CURVE ( 'NONE', #88, #188, #122, .T. ) ;
#33 = DIRECTION ( 'NONE',  ( -1.000000000000000000, -0.000000000000000000, -0.000000000000000000 ) ) ;
#34 = PLANE ( 'NONE',  #92 ) ;
#35 = FACE_OUTER_BOUND ( 'NONE', #114, .T. ) ;
#36 = ORIENTED_EDGE ( 'NONE', *, *, #333, .T. ) ;
#37 = DIRECTION ( 'NONE',  ( 1.000000000000000000, 0.000000000000000000, 0.000000000000000000 ) ) ;
#38 = DIRECTION ( 'NONE',  ( 1.000000000000000000, 0.000000000000000000, 0.000000000000000000 ) ) ;
#39 = ORIENTED_EDGE ( 'NONE', *, *, #189, .F. ) ;
#40 = ADVANCED_FACE ( 'NONE', ( #279, #249 ), #22, .F. ) ;
#41 = CIRCLE ( 'NONE', #124, 12.69999999999999929 ) ;
#42 = CLOSED_SHELL ( 'NONE', ( #153, #99, #321, #5, #224, #273, #40, #131, #201, #317 ) ) ;
#43 = CARTESIAN_POINT ( 'NONE',  ( 2.999999999999999112, 0.000000000000000000, 0.000000000000000000 ) ) ;
#44 = DIRECTION ( 'NONE',  ( -1.000000000000000000, -0.000000000000000000, -0.000000000000000000 ) ) ;
#45 = DIRECTION ( 'NONE',  ( -1.000000000000000000, -0.000000000000000000, -0.000000000000000000 ) ) ;
#46 = CIRCLE ( 'NONE', #2, 10.00000000000000000 ) ;
#47 = VERTEX_POINT ( 'NONE', #332 ) ;
#48 = CC_DESIGN_PERSON_AND_ORGANIZATION_ASSIGNMENT ( #85, #185, ( #17 ) ) ;
#49 = ORIENTED_EDGE ( 'NONE', *, *, #116, .F. ) ;
#50 = VERTEX_POINT ( 'NONE', #173 ) ;
#51 = DIRECTION ( 'NONE',  ( -1.000000000000000000, -0.000000000000000000, -0.000000000000000000 ) ) ;
#52 = EDGE_CURVE ( 'NONE', #47, #174, #228, .T. ) ;
#53 = APPROVAL_ROLE ( '' ) ;
#54 = LINE ( 'NONE', #160, #11 ) ;
#55 = AXIS2_PLACEMENT_3D ( 'NONE', #96, #68, #192 ) ;
#56 = DIRECTION ( 'NONE',  ( 1.000000000000000000, 0.000000000000000000, 0.000000000000000000 ) ) ;
#57 = DIRECTION ( 'NONE',  ( 0.000000000000000000, 0.000000000000000000, -1.000000000000000000 ) ) ;
#58 = EDGE_LOOP ( 'NONE', ( #335, #311, #241, #36 ) ) ;
#59 = DATE_AND_TIME ( #294, #312 ) ;
#60 = EDGE_CURVE ( 'NONE', #155, #47, #73, .T. ) ;
#61 = DIRECTION ( 'NONE',  ( -1.000000000000000000, -0.000000000000000000, -0.000000000000000000 ) ) ;
#62 = ORIENTED_EDGE ( 'NONE', *, *, #116, .T. ) ;
#63 = EDGE_LOOP ( 'NONE', ( #49, #91 ) ) ;
#64 = APPLICATION_PROTOCOL_DEFINITION ( 'international standard', 'config_control_design', 1994, #330 ) ;
#65 = PRODUCT_RELATED_PRODUCT_CATEGORY ( 'detail', '', ( #250 ) ) ;
#66 = APPLICATION_CONTEXT ( 'configuration controlled 3d designs of mechanical parts and assemblies' ) ;
#67 = CYLINDRICAL_SURFACE ( 'NONE', #55, 10.00000000000000000 ) ;
#68 = DIRECTION ( 'NONE',  ( -1.000000000000000000, -0.000000000000000000, -0.000000000000000000 ) ) ;
#69 = VECTOR ( 'NONE', #248, 1000.000000000000000 ) ;
#70 = APPROVAL_STATUS ( 'not_yet_approved' ) ;
#71 = DIRECTION ( 'NONE',  ( 1.000000000000000000, 0.000000000000000000, 0.000000000000000000 ) ) ;
#72 = PERSON_AND_ORGANIZATION ( #227, #129 ) ;
#73 = LINE ( 'NONE', #275, #168 ) ;
#74 = ADVANCED_BREP_SHAPE_REPRESENTATION ( 'QB-CTZQWP-20-633-M', ( #80, #196 ), #25 ) ;
#75 = CC_DESIGN_PERSON_AND_ORGANIZATION_ASSIGNMENT ( #297, #204, ( #250 ) ) ;
#76 = EDGE_LOOP ( 'NONE', ( #163, #177 ) ) ;
#77 = AXIS2_PLACEMENT_3D ( 'NONE', #162, #137, #264 ) ;
#78 = VERTEX_POINT ( 'NONE', #324 ) ;
#79 = CARTESIAN_POINT ( 'NONE',  ( -3.000000000000000444, 0.000000000000000000, 0.000000000000000000 ) ) ;
#80 = MANIFOLD_SOLID_BREP ( 'Ðý×', #42 ) ;
#81 = DIRECTION ( 'NONE',  ( 0.000000000000000000, 0.000000000000000000, 1.000000000000000000 ) ) ;
#82 = CYLINDRICAL_SURFACE ( 'NONE', #272, 10.00000000000000000 ) ;
#83 = CARTESIAN_POINT ( 'NONE',  ( -3.000000000000000000, 0.000000000000000000, 0.000000000000000000 ) ) ;
#84 = DIRECTION ( 'NONE',  ( 0.000000000000000000, 0.000000000000000000, 1.000000000000000000 ) ) ;
#85 = PERSON_AND_ORGANIZATION ( #227, #129 ) ;
#86 = DIRECTION ( 'NONE',  ( 0.000000000000000000, 0.000000000000000000, 1.000000000000000000 ) ) ;
#87 = ORIENTED_EDGE ( 'NONE', *, *, #146, .T. ) ;
#88 = VERTEX_POINT ( 'NONE', #16 ) ;
#89 = EDGE_CURVE ( 'NONE', #105, #174, #322, .T. ) ;
#90 = FACE_BOUND ( 'NONE', #27, .T. ) ;
#91 = ORIENTED_EDGE ( 'NONE', *, *, #255, .F. ) ;
#92 = AXIS2_PLACEMENT_3D ( 'NONE', #157, #37, #242 ) ;
#93 = EDGE_CURVE ( 'NONE', #107, #78, #121, .T. ) ;
#94 = DIRECTION ( 'NONE',  ( -1.000000000000000000, -0.000000000000000000, -0.000000000000000000 ) ) ;
#95 = COORDINATED_UNIVERSAL_TIME_OFFSET ( 8, 0, .AHEAD. ) ;
#96 = CARTESIAN_POINT ( 'NONE',  ( -1.614212418857619014, 0.000000000000000000, 0.000000000000000000 ) ) ;
#97 = APPROVAL_DATE_TIME ( #126, #104 ) ;
#98 = AXIS2_PLACEMENT_3D ( 'NONE', #304, #123, #144 ) ;
#99 = ADVANCED_FACE ( 'NONE', ( #328 ), #67, .F. ) ;
#100 = DIRECTION ( 'NONE',  ( -1.000000000000000000, -0.000000000000000000, -0.000000000000000000 ) ) ;
#101 = DIRECTION ( 'NONE',  ( -1.000000000000000000, 0.000000000000000000, -0.000000000000000000 ) ) ;
#102 = CIRCLE ( 'NONE', #190, 10.00000000000000000 ) ;
#103 = EDGE_CURVE ( 'NONE', #155, #105, #246, .T. ) ;
#104 = APPROVAL ( #70, 'UNSPECIFIED' ) ;
#105 = VERTEX_POINT ( 'NONE', #302 ) ;
#106 = UNCERTAINTY_MEASURE_WITH_UNIT (LENGTH_MEASURE( 1.000000000000000082E-05 ), #117, 'distance_accuracy_value', 'NONE');
#107 = VERTEX_POINT ( 'NONE', #219 ) ;
#108 = AXIS2_PLACEMENT_3D ( 'NONE', #198, #45, #307 ) ;
#109 = COORDINATED_UNIVERSAL_TIME_OFFSET ( 8, 0, .AHEAD. ) ;
#110 = CARTESIAN_POINT ( 'NONE',  ( -3.000000000000000444, 0.000000000000000000, 0.000000000000000000 ) ) ;
#111 = FACE_OUTER_BOUND ( 'NONE', #216, .T. ) ;
#112 =( NAMED_UNIT ( * ) SI_UNIT ( $, .STERADIAN. ) SOLID_ANGLE_UNIT ( ) );
#113 = CYLINDRICAL_SURFACE ( 'NONE', #77, 12.69999999999999929 ) ;
#114 = EDGE_LOOP ( 'NONE', ( #62, #87, #39, #286 ) ) ;
#115 = AXIS2_PLACEMENT_3D ( 'NONE', #110, #30, #84 ) ;
#116 = EDGE_CURVE ( 'NONE', #107, #244, #151, .T. ) ;
#117 =( LENGTH_UNIT ( ) NAMED_UNIT ( * ) SI_UNIT ( .MILLI., .METRE. ) );
#118 = DIRECTION ( 'NONE',  ( -1.000000000000000000, 0.000000000000000000, -0.000000000000000000 ) ) ;
#119 = ORIENTED_EDGE ( 'NONE', *, *, #103, .F. ) ;
#120 = COORDINATED_UNIVERSAL_TIME_OFFSET ( 8, 0, .AHEAD. ) ;
#121 = LINE ( 'NONE', #19, #158 ) ;
#122 = LINE ( 'NONE', #254, #217 ) ;
#123 = DIRECTION ( 'NONE',  ( -1.000000000000000000, -0.000000000000000000, -0.000000000000000000 ) ) ;
#124 = AXIS2_PLACEMENT_3D ( 'NONE', #136, #237, #6 ) ;
#125 = CARTESIAN_POINT ( 'NONE',  ( 2.500000000000000444, 10.00000000000000000, 0.000000000000000000 ) ) ;
#126 = DATE_AND_TIME ( #23, #31 ) ;
#127 = CALENDAR_DATE ( 2020, 24, 12 ) ;
#128 = CIRCLE ( 'NONE', #271, 12.69999999999999929 ) ;
#129 = ORGANIZATION ( 'UNSPECIFIED', 'UNSPECIFIED', '' ) ;
#130 = ORIENTED_EDGE ( 'NONE', *, *, #255, .T. ) ;
#131 = ADVANCED_FACE ( 'NONE', ( #276 ), #145, .T. ) ;
#132 = ORIENTED_EDGE ( 'NONE', *, *, #15, .F. ) ;
#133 = ORIENTED_EDGE ( 'NONE', *, *, #89, .F. ) ;
#134 = CIRCLE ( 'NONE', #309, 10.00000000000000000 ) ;
#135 = CYLINDRICAL_SURFACE ( 'NONE', #178, 10.00000000000000000 ) ;
#136 = CARTESIAN_POINT ( 'NONE',  ( -3.000000000000000000, 0.000000000000000000, 0.000000000000000000 ) ) ;
#137 = DIRECTION ( 'NONE',  ( -1.000000000000000000, -0.000000000000000000, -0.000000000000000000 ) ) ;
#138 = ORIENTED_EDGE ( 'NONE', *, *, #89, .T. ) ;
#139 = EDGE_CURVE ( 'NONE', #105, #155, #102, .T. ) ;
#140 = PLANE ( 'NONE',  #326 ) ;
#141 = ORIENTED_EDGE ( 'NONE', *, *, #205, .T. ) ;
#142 = DATE_TIME_ROLE ( 'creation_date' ) ;
#143 = AXIS2_PLACEMENT_3D ( 'NONE', #125, #101, #327 ) ;
#144 = DIRECTION ( 'NONE',  ( 0.000000000000000000, 0.000000000000000000, 1.000000000000000000 ) ) ;
#145 = CYLINDRICAL_SURFACE ( 'NONE', #209, 12.69999999999999929 ) ;
#146 = EDGE_CURVE ( 'NONE', #244, #265, #186, .T. ) ;
#147 = PLANE ( 'NONE',  #143 ) ;
#148 = COORDINATED_UNIVERSAL_TIME_OFFSET ( 8, 0, .AHEAD. ) ;
#149 = AXIS2_PLACEMENT_3D ( 'NONE', #83, #239, #86 ) ;
#150 = FACE_OUTER_BOUND ( 'NONE', #76, .T. ) ;
#151 = CIRCLE ( 'NONE', #98, 12.69999999999999929 ) ;
#152 = CC_DESIGN_APPROVAL ( #169, ( #234 ) ) ;
#153 = ADVANCED_FACE ( 'NONE', ( #35 ), #113, .T. ) ;
#154 = ORIENTED_EDGE ( 'NONE', *, *, #103, .T. ) ;
#155 = VERTEX_POINT ( 'NONE', #165 ) ;
#156 = DIRECTION ( 'NONE',  ( 0.000000000000000000, 0.000000000000000000, 1.000000000000000000 ) ) ;
#157 = CARTESIAN_POINT ( 'NONE',  ( -2.500000000000000444, 10.00000000000000000, 0.000000000000000000 ) ) ;
#158 = VECTOR ( 'NONE', #94, 1000.000000000000000 ) ;
#159 = LOCAL_TIME ( 9, 50, 16.00000000000000000, #232 ) ;
#160 = CARTESIAN_POINT ( 'NONE',  ( -1.614212418857619014, 0.000000000000000000, 10.00000000000000000 ) ) ;
#161 = MECHANICAL_CONTEXT ( 'NONE', #66, 'mechanical' ) ;
#162 = CARTESIAN_POINT ( 'NONE',  ( -1.614212418857619014, 0.000000000000000000, 0.000000000000000000 ) ) ;
#163 = ORIENTED_EDGE ( 'NONE', *, *, #52, .F. ) ;
#164 = PERSON_AND_ORGANIZATION ( #227, #129 ) ;
#165 = CARTESIAN_POINT ( 'NONE',  ( 2.999999999999999112, 0.000000000000000000, 10.00000000000000000 ) ) ;
#166 = ORIENTED_EDGE ( 'NONE', *, *, #189, .T. ) ;
#167 = PERSON_AND_ORGANIZATION ( #227, #129 ) ;
#168 = VECTOR ( 'NONE', #44, 1000.000000000000000 ) ;
#169 = APPROVAL ( #266, 'UNSPECIFIED' ) ;
#170 = APPROVAL_PERSON_ORGANIZATION ( #164, #169, #245 ) ;
#171 = CARTESIAN_POINT ( 'NONE',  ( -1.614212418857619014, 1.224646799147353256E-15, -10.00000000000000000 ) ) ;
#172 = DIRECTION ( 'NONE',  ( 0.000000000000000000, 0.000000000000000000, 1.000000000000000000 ) ) ;
#173 = CARTESIAN_POINT ( 'NONE',  ( -2.500000000000000444, 0.000000000000000000, 10.00000000000000000 ) ) ;
#174 = VERTEX_POINT ( 'NONE', #292 ) ;
#175 = EDGE_CURVE ( 'NONE', #88, #50, #334, .T. ) ;
#176 = PRODUCT_DEFINITION_SHAPE ( 'NONE', 'NONE',  #17 ) ;
#177 = ORIENTED_EDGE ( 'NONE', *, *, #205, .F. ) ;
#178 = AXIS2_PLACEMENT_3D ( 'NONE', #290, #235, #181 ) ;
#179 = ORIENTED_EDGE ( 'NONE', *, *, #139, .T. ) ;
#180 = CARTESIAN_POINT ( 'NONE',  ( -1.614212418857619014, 0.000000000000000000, 0.000000000000000000 ) ) ;
#181 = DIRECTION ( 'NONE',  ( 0.000000000000000000, 0.000000000000000000, 1.000000000000000000 ) ) ;
#182 =( NAMED_UNIT ( * ) PLANE_ANGLE_UNIT ( ) SI_UNIT ( $, .RADIAN. ) );
#183 = DIRECTION ( 'NONE',  ( 0.000000000000000000, 0.000000000000000000, 1.000000000000000000 ) ) ;
#184 = DIRECTION ( 'NONE',  ( 0.000000000000000000, 0.000000000000000000, 1.000000000000000000 ) ) ;
#185 = PERSON_AND_ORGANIZATION_ROLE ( 'creator' ) ;
#186 = LINE ( 'NONE', #320, #283 ) ;
#187 = ORIENTED_EDGE ( 'NONE', *, *, #139, .F. ) ;
#188 = VERTEX_POINT ( 'NONE', #210 ) ;
#189 = EDGE_CURVE ( 'NONE', #78, #265, #203, .T. ) ;
#190 = AXIS2_PLACEMENT_3D ( 'NONE', #243, #61, #183 ) ;
#191 = SECURITY_CLASSIFICATION ( '', '', #323 ) ;
#192 = DIRECTION ( 'NONE',  ( 0.000000000000000000, 0.000000000000000000, 1.000000000000000000 ) ) ;
#193 = PERSON_AND_ORGANIZATION ( #227, #129 ) ;
#194 = DIRECTION ( 'NONE',  ( -1.000000000000000000, -0.000000000000000000, -0.000000000000000000 ) ) ;
#195 = PERSON_AND_ORGANIZATION ( #227, #129 ) ;
#196 = AXIS2_PLACEMENT_3D ( 'NONE', #291, #3, #56 ) ;
#197 = DIRECTION ( 'NONE',  ( 0.000000000000000000, 0.000000000000000000, -1.000000000000000000 ) ) ;
#198 = CARTESIAN_POINT ( 'NONE',  ( 2.500000000000000888, 0.000000000000000000, 0.000000000000000000 ) ) ;
#199 = CC_DESIGN_PERSON_AND_ORGANIZATION_ASSIGNMENT ( #195, #278, ( #234 ) ) ;
#200 = ORIENTED_EDGE ( 'NONE', *, *, #15, .T. ) ;
#201 = ADVANCED_FACE ( 'NONE', ( #318, #90 ), #140, .F. ) ;
#202 = ORIENTED_EDGE ( 'NONE', *, *, #146, .F. ) ;
#203 = CIRCLE ( 'NONE', #149, 12.69999999999999929 ) ;
#204 = PERSON_AND_ORGANIZATION_ROLE ( 'design_owner' ) ;
#205 = EDGE_CURVE ( 'NONE', #174, #47, #46, .T. ) ;
#206 = CARTESIAN_POINT ( 'NONE',  ( 3.000000000000000000, 0.000000000000000000, 0.000000000000000000 ) ) ;
#207 = CYLINDRICAL_SURFACE ( 'NONE', #24, 10.00000000000000000 ) ;
#208 = CALENDAR_DATE ( 2020, 24, 12 ) ;
#209 = AXIS2_PLACEMENT_3D ( 'NONE', #251, #222, #295 ) ;
#210 = CARTESIAN_POINT ( 'NONE',  ( -3.000000000000000444, 1.224646799147353256E-15, -10.00000000000000000 ) ) ;
#211 = ORIENTED_EDGE ( 'NONE', *, *, #175, .F. ) ;
#212 = EDGE_LOOP ( 'NONE', ( #29, #257 ) ) ;
#213 = AXIS2_PLACEMENT_3D ( 'NONE', #221, #71, #305 ) ;
#214 = DIRECTION ( 'NONE',  ( -1.000000000000000000, -0.000000000000000000, -0.000000000000000000 ) ) ;
#215 = DIRECTION ( 'NONE',  ( -1.000000000000000000, -0.000000000000000000, -0.000000000000000000 ) ) ;
#216 = EDGE_LOOP ( 'NONE', ( #133, #119, #319, #284 ) ) ;
#217 = VECTOR ( 'NONE', #100, 1000.000000000000000 ) ;
#218 = PERSON_AND_ORGANIZATION_ROLE ( 'classification_officer' ) ;
#219 = CARTESIAN_POINT ( 'NONE',  ( 3.000000000000000000, 0.000000000000000000, 12.69999999999999929 ) ) ;
#220 = PERSON_AND_ORGANIZATION_ROLE ( 'creator' ) ;
#221 = CARTESIAN_POINT ( 'NONE',  ( -3.000000000000000000, 10.00000000000000000, 0.000000000000000000 ) ) ;
#222 = DIRECTION ( 'NONE',  ( -1.000000000000000000, -0.000000000000000000, -0.000000000000000000 ) ) ;
#223 = LOCAL_TIME ( 9, 50, 16.00000000000000000, #120 ) ;
#224 = ADVANCED_FACE ( 'NONE', ( #111 ), #207, .F. ) ;
#225 = DIRECTION ( 'NONE',  ( 1.000000000000000000, 0.000000000000000000, 0.000000000000000000 ) ) ;
#226 = DATE_AND_TIME ( #127, #256 ) ;
#227 = PERSON ( 'UNSPECIFIED', 'UNSPECIFIED', 'UNSPECIFIED', ('UNSPECIFIED'), ('UNSPECIFIED'), ('UNSPECIFIED') ) ;
#228 = CIRCLE ( 'NONE', #108, 10.00000000000000000 ) ;
#229 = CC_DESIGN_APPROVAL ( #104, ( #191 ) ) ;
#230 = ORIENTED_EDGE ( 'NONE', *, *, #32, .T. ) ;
#231 = ORIENTED_EDGE ( 'NONE', *, *, #233, .T. ) ;
#232 = COORDINATED_UNIVERSAL_TIME_OFFSET ( 8, 0, .AHEAD. ) ;
#233 = EDGE_CURVE ( 'NONE', #188, #9, #274, .T. ) ;
#234 = PRODUCT_DEFINITION_FORMATION_WITH_SPECIFIED_SOURCE ( 'ANY', '', #250, .NOT_KNOWN. ) ;
#235 = DIRECTION ( 'NONE',  ( -1.000000000000000000, -0.000000000000000000, -0.000000000000000000 ) ) ;
#236 = DIRECTION ( 'NONE',  ( -1.000000000000000000, -0.000000000000000000, -0.000000000000000000 ) ) ;
#237 = DIRECTION ( 'NONE',  ( -1.000000000000000000, -0.000000000000000000, -0.000000000000000000 ) ) ;
#238 = DATE_AND_TIME ( #208, #159 ) ;
#239 = DIRECTION ( 'NONE',  ( -1.000000000000000000, -0.000000000000000000, -0.000000000000000000 ) ) ;
#240 = EDGE_LOOP ( 'NONE', ( #132, #211 ) ) ;
#241 = ORIENTED_EDGE ( 'NONE', *, *, #282, .T. ) ;
#242 = DIRECTION ( 'NONE',  ( 0.000000000000000000, 0.000000000000000000, -1.000000000000000000 ) ) ;
#243 = CARTESIAN_POINT ( 'NONE',  ( 2.999999999999999112, 0.000000000000000000, 0.000000000000000000 ) ) ;
#244 = VERTEX_POINT ( 'NONE', #315 ) ;
#245 = APPROVAL_ROLE ( '' ) ;
#246 = CIRCLE ( 'NONE', #299, 10.00000000000000000 ) ;
#247 = APPROVAL_DATE_TIME ( #226, #169 ) ;
#248 = DIRECTION ( 'NONE',  ( -1.000000000000000000, -0.000000000000000000, -0.000000000000000000 ) ) ;
#249 = FACE_OUTER_BOUND ( 'NONE', #298, .T. ) ;
#250 = PRODUCT ( 'QB-CTZQWP-20-633-M', 'QB-CTZQWP-20-633-M', '', ( #161 ) ) ;
#251 = CARTESIAN_POINT ( 'NONE',  ( -1.614212418857619014, 0.000000000000000000, 0.000000000000000000 ) ) ;
#252 = CARTESIAN_POINT ( 'NONE',  ( -3.000000000000000444, 0.000000000000000000, 10.00000000000000000 ) ) ;
#253 = APPROVAL_PERSON_ORGANIZATION ( #72, #104, #20 ) ;
#254 = CARTESIAN_POINT ( 'NONE',  ( -1.614212418857619014, 1.224646799147353256E-15, -10.00000000000000000 ) ) ;
#255 = EDGE_CURVE ( 'NONE', #244, #107, #128, .T. ) ;
#256 = LOCAL_TIME ( 9, 50, 16.00000000000000000, #95 ) ;
#257 = ORIENTED_EDGE ( 'NONE', *, *, #233, .F. ) ;
#258 = CC_DESIGN_PERSON_AND_ORGANIZATION_ASSIGNMENT ( #308, #220, ( #234 ) ) ;
#259 = ORIENTED_EDGE ( 'NONE', *, *, #285, .T. ) ;
#260 = DIRECTION ( 'NONE',  ( -1.000000000000000000, -0.000000000000000000, -0.000000000000000000 ) ) ;
#261 = FACE_OUTER_BOUND ( 'NONE', #313, .T. ) ;
#262 = CC_DESIGN_SECURITY_CLASSIFICATION ( #191, ( #234 ) ) ;
#263 = FACE_OUTER_BOUND ( 'NONE', #58, .T. ) ;
#264 = DIRECTION ( 'NONE',  ( 0.000000000000000000, 0.000000000000000000, 1.000000000000000000 ) ) ;
#265 = VERTEX_POINT ( 'NONE', #293 ) ;
#266 = APPROVAL_STATUS ( 'not_yet_approved' ) ;
#267 = CARTESIAN_POINT ( 'NONE',  ( -2.500000000000000444, 0.000000000000000000, 0.000000000000000000 ) ) ;
#268 = ORIENTED_EDGE ( 'NONE', *, *, #93, .T. ) ;
#269 = EDGE_LOOP ( 'NONE', ( #200, #230, #231, #18 ) ) ;
#270 = APPROVAL_STATUS ( 'not_yet_approved' ) ;
#271 = AXIS2_PLACEMENT_3D ( 'NONE', #206, #260, #184 ) ;
#272 = AXIS2_PLACEMENT_3D ( 'NONE', #180, #236, #289 ) ;
#273 = ADVANCED_FACE ( 'NONE', ( #263 ), #135, .F. ) ;
#274 = CIRCLE ( 'NONE', #115, 10.00000000000000000 ) ;
#275 = CARTESIAN_POINT ( 'NONE',  ( -1.614212418857619014, 0.000000000000000000, 10.00000000000000000 ) ) ;
#276 = FACE_OUTER_BOUND ( 'NONE', #1, .T. ) ;
#277 = CARTESIAN_POINT ( 'NONE',  ( -2.500000000000000444, 0.000000000000000000, 0.000000000000000000 ) ) ;
#278 = PERSON_AND_ORGANIZATION_ROLE ( 'design_supplier' ) ;
#279 = FACE_BOUND ( 'NONE', #212, .T. ) ;
#280 = DATE_AND_TIME ( #329, #223 ) ;
#281 = CIRCLE ( 'NONE', #310, 10.00000000000000000 ) ;
#282 = EDGE_CURVE ( 'NONE', #50, #9, #54, .T. ) ;
#283 = VECTOR ( 'NONE', #215, 1000.000000000000000 ) ;
#284 = ORIENTED_EDGE ( 'NONE', *, *, #52, .T. ) ;
#285 = EDGE_CURVE ( 'NONE', #265, #78, #41, .T. ) ;
#286 = ORIENTED_EDGE ( 'NONE', *, *, #93, .F. ) ;
#287 = CARTESIAN_POINT ( 'NONE',  ( -1.614212418857619014, 0.000000000000000000, 0.000000000000000000 ) ) ;
#288 = CC_DESIGN_DATE_AND_TIME_ASSIGNMENT ( #280, #306, ( #191 ) ) ;
#289 = DIRECTION ( 'NONE',  ( 0.000000000000000000, 0.000000000000000000, 1.000000000000000000 ) ) ;
#290 = CARTESIAN_POINT ( 'NONE',  ( -1.614212418857619014, 0.000000000000000000, 0.000000000000000000 ) ) ;
#291 = CARTESIAN_POINT ( 'NONE',  ( 0.000000000000000000, 0.000000000000000000, 0.000000000000000000 ) ) ;
#292 = CARTESIAN_POINT ( 'NONE',  ( 2.500000000000000888, 1.224646799147353256E-15, -10.00000000000000000 ) ) ;
#293 = CARTESIAN_POINT ( 'NONE',  ( -3.000000000000000000, 1.555301434917138433E-15, -12.69999999999999929 ) ) ;
#294 = CALENDAR_DATE ( 2020, 24, 12 ) ;
#295 = DIRECTION ( 'NONE',  ( 0.000000000000000000, 0.000000000000000000, 1.000000000000000000 ) ) ;
#296 = ORIENTED_EDGE ( 'NONE', *, *, #285, .F. ) ;
#297 = PERSON_AND_ORGANIZATION ( #227, #129 ) ;
#298 = EDGE_LOOP ( 'NONE', ( #166, #259 ) ) ;
#299 = AXIS2_PLACEMENT_3D ( 'NONE', #43, #194, #172 ) ;
#300 = CC_DESIGN_APPROVAL ( #26, ( #17 ) ) ;
#301 = CC_DESIGN_PERSON_AND_ORGANIZATION_ASSIGNMENT ( #193, #218, ( #191 ) ) ;
#302 = CARTESIAN_POINT ( 'NONE',  ( 2.999999999999999112, 1.224646799147353256E-15, -10.00000000000000000 ) ) ;
#303 = SHAPE_DEFINITION_REPRESENTATION ( #176, #74 ) ;
#304 = CARTESIAN_POINT ( 'NONE',  ( 3.000000000000000000, 0.000000000000000000, 0.000000000000000000 ) ) ;
#305 = DIRECTION ( 'NONE',  ( 0.000000000000000000, 0.000000000000000000, -1.000000000000000000 ) ) ;
#306 = DATE_TIME_ROLE ( 'classification_date' ) ;
#307 = DIRECTION ( 'NONE',  ( 0.000000000000000000, 0.000000000000000000, 1.000000000000000000 ) ) ;
#308 = PERSON_AND_ORGANIZATION ( #227, #129 ) ;
#309 = AXIS2_PLACEMENT_3D ( 'NONE', #277, #225, #197 ) ;
#310 = AXIS2_PLACEMENT_3D ( 'NONE', #79, #214, #10 ) ;
#311 = ORIENTED_EDGE ( 'NONE', *, *, #175, .T. ) ;
#312 = LOCAL_TIME ( 9, 50, 16.00000000000000000, #109 ) ;
#313 = EDGE_LOOP ( 'NONE', ( #187, #138, #141, #14 ) ) ;
#314 = FACE_OUTER_BOUND ( 'NONE', #240, .T. ) ;
#315 = CARTESIAN_POINT ( 'NONE',  ( 3.000000000000000000, 1.555301434917138433E-15, -12.69999999999999929 ) ) ;
#316 = DIRECTION ( 'NONE',  ( -1.000000000000000000, -0.000000000000000000, -0.000000000000000000 ) ) ;
#317 = ADVANCED_FACE ( 'NONE', ( #314 ), #34, .F. ) ;
#318 = FACE_OUTER_BOUND ( 'NONE', #63, .T. ) ;
#319 = ORIENTED_EDGE ( 'NONE', *, *, #60, .T. ) ;
#320 = CARTESIAN_POINT ( 'NONE',  ( -1.614212418857619014, 1.555301434917138433E-15, -12.69999999999999929 ) ) ;
#321 = ADVANCED_FACE ( 'NONE', ( #261 ), #82, .F. ) ;
#322 = LINE ( 'NONE', #171, #69 ) ;
#323 = SECURITY_CLASSIFICATION_LEVEL ( 'unclassified' ) ;
#324 = CARTESIAN_POINT ( 'NONE',  ( -3.000000000000000000, 0.000000000000000000, 12.69999999999999929 ) ) ;
#325 = CC_DESIGN_DATE_AND_TIME_ASSIGNMENT ( #59, #142, ( #17 ) ) ;
#326 = AXIS2_PLACEMENT_3D ( 'NONE', #13, #118, #8 ) ;
#327 = DIRECTION ( 'NONE',  ( -0.000000000000000000, 0.000000000000000000, 1.000000000000000000 ) ) ;
#328 = FACE_OUTER_BOUND ( 'NONE', #269, .T. ) ;
#329 = CALENDAR_DATE ( 2020, 24, 12 ) ;
#330 = APPLICATION_CONTEXT ( 'configuration controlled 3d designs of mechanical parts and assemblies' ) ;
#331 = DESIGN_CONTEXT ( 'detailed design', #330, 'design' ) ;
#332 = CARTESIAN_POINT ( 'NONE',  ( 2.500000000000000888, 0.000000000000000000, 10.00000000000000000 ) ) ;
#333 = EDGE_CURVE ( 'NONE', #9, #188, #281, .T. ) ;
#334 = CIRCLE ( 'NONE', #21, 10.00000000000000000 ) ;
#335 = ORIENTED_EDGE ( 'NONE', *, *, #32, .F. ) ;
ENDSEC;
END-ISO-10303-21;
